  0
SECTION
  2
HEADER
  9
$ACADVER
  1
AC1009
  9
$INSBASE
 10
54.9900799580948
 20
116.7139127515285
 30
0.0
  9
$EXTMIN
 10
54.9900799580948
 20
116.7139127515285
 30
0.0
  9
$EXTMAX
 10
72.24607995809481
 20
192.378004600459
 30
0.0
  9
$LIMMIN
 10
0.0
 20
0.0
  9
$LIMMAX
 10
420.0
 20
297.0
  9
$ORTHOMODE
 70
     1
  9
$REGENMODE
 70
     0
  9
$FILLMODE
 70
     1
  9
$QTEXTMODE
 70
     0
  9
$MIRRTEXT
 70
     0
  9
$DRAGMODE
 70
     2
  9
$LTSCALE
 40
1.0
  9
$OSMODE
 70
     0
  9
$ATTMODE
 70
     1
  9
$TEXTSIZE
 40
3.5
  9
$TRACEWID
 40
0.1
  9
$TEXTSTYLE
  7
STANDARD
  9
$CLAYER
  8
ITEM_50
  9
$CELTYPE
  6
BYLAYER
  9
$CECOLOR
 62
   256
  9
$DIMSCALE
 40
1.0
  9
$DIMASZ
 40
2.0
  9
$DIMEXO
 40
1.0
  9
$DIMDLI
 40
8.0
  9
$DIMRND
 40
0.0
  9
$DIMDLE
 40
0.0
  9
$DIMEXE
 40
2.0
  9
$DIMTP
 40
0.1
  9
$DIMTM
 40
0.1
  9
$DIMTXT
 40
3.5
  9
$DIMCEN
 40
2.0
  9
$DIMTSZ
 40
0.0
  9
$DIMTOL
 70
     0
  9
$DIMLIM
 70
     0
  9
$DIMTIH
 70
     0
  9
$DIMTOH
 70
     0
  9
$DIMSE1
 70
     0
  9
$DIMSE2
 70
     0
  9
$DIMTAD
 70
     1
  9
$DIMZIN
 70
     0
  9
$DIMBLK
  1

  9
$DIMASO
 70
     1
  9
$DIMSHO
 70
     0
  9
$DIMPOST
  1

  9
$DIMAPOST
  1

  9
$DIMALT
 70
     0
  9
$DIMALTD
 70
     2
  9
$DIMALTF
 40
25.39999999999999
  9
$DIMLFAC
 40
1.0
  9
$DIMTOFL
 70
     0
  9
$DIMTVP
 40
0.0
  9
$DIMTIX
 70
     0
  9
$DIMSOXD
 70
     0
  9
$DIMSAH
 70
     0
  9
$DIMBLK1
  1

  9
$DIMBLK2
  1

  9
$DIMSTYLE
  2
*UNNAMED
  9
$DIMCLRD
 70
     0
  9
$DIMCLRE
 70
     0
  9
$DIMCLRT
 70
     0
  9
$DIMTFAC
 40
1.0
  9
$DIMGAP
 40
0.09
  9
$LUNITS
 70
     2
  9
$LUPREC
 70
     3
  9
$SKETCHINC
 40
0.1
  9
$FILLETRAD
 40
20.0
  9
$AUNITS
 70
     0
  9
$AUPREC
 70
     1
  9
$MENU
  1

  9
$ELEVATION
 40
0.0
  9
$PELEVATION
 40
0.0
  9
$THICKNESS
 40
0.0
  9
$LIMCHECK
 70
     0
  9
$BLIPMODE
 70
     0
  9
$CHAMFERA
 40
0.0
  9
$CHAMFERB
 40
0.0
  9
$SKPOLY
 70
     1
  9
$TDCREATE
 40
2448786.337266666
  9
$TDUPDATE
 40
2449393.454037384
  9
$TDINDWG
 40
0.0007552083
  9
$TDUSRTIMER
 40
0.0007552083
  9
$USRTIMER
 70
     1
  9
$ANGBASE
 50
0.0
  9
$ANGDIR
 70
     0
  9
$PDMODE
 70
     0
  9
$PDSIZE
 40
0.0
  9
$PLINEWID
 40
0.0
  9
$COORDS
 70
     2
  9
$SPLFRAME
 70
     0
  9
$SPLINETYPE
 70
     6
  9
$SPLINESEGS
 70
     8
  9
$ATTDIA
 70
     1
  9
$ATTREQ
 70
     1
  9
$HANDLING
 70
     0
  9
$HANDSEED
  5
7E
  9
$SURFTAB1
 70
     6
  9
$SURFTAB2
 70
     6
  9
$SURFTYPE
 70
     6
  9
$SURFU
 70
     6
  9
$SURFV
 70
     6
  9
$UCSNAME
  2

  9
$UCSORG
 10
0.0
 20
0.0
 30
0.0
  9
$UCSXDIR
 10
1.0
 20
0.0
 30
0.0
  9
$UCSYDIR
 10
0.0
 20
1.0
 30
0.0
  9
$PUCSNAME
  2

  9
$PUCSORG
 10
0.0
 20
0.0
 30
0.0
  9
$PUCSXDIR
 10
1.0
 20
0.0
 30
0.0
  9
$PUCSYDIR
 10
0.0
 20
1.0
 30
0.0
  9
$USERI1
 70
     0
  9
$USERI2
 70
     3
  9
$USERI3
 70
    15
  9
$USERI4
 70
     0
  9
$USERI5
 70
     0
  9
$USERR1
 40
1.0
  9
$USERR2
 40
1.0
  9
$USERR3
 40
0.0
  9
$USERR4
 40
1.0
  9
$USERR5
 40
0.0
  9
$WORLDVIEW
 70
     1
  9
$SHADEDGE
 70
     3
  9
$SHADEDIF
 70
    70
  9
$TILEMODE
 70
     1
  9
$MAXACTVP
 70
    16
  9
$PINSBASE
 10
0.0
 20
0.0
 30
0.0
  9
$PLIMCHECK
 70
     0
  9
$PEXTMIN
 10
1.000000000000000E+20
 20
1.000000000000000E+20
 30
1.000000000000000E+20
  9
$PEXTMAX
 10
-1.000000000000000E+20
 20
-1.000000000000000E+20
 30
-1.000000000000000E+20
  9
$PLIMMIN
 10
0.0
 20
0.0
  9
$PLIMMAX
 10
12.0
 20
9.0
  9
$UNITMODE
 70
     0
  9
$VISRETAIN
 70
     0
  9
$PLINEGEN
 70
     0
  9
$PSLTSCALE
 70
     0
  9
$TREEDEPTH
 70
  3020
  9
$DWGCODEPAGE
  3
undefined
  0
ENDSEC
  0
SECTION
  2
TABLES
  0
TABLE
  2
VPORT
 70
     2
  0
VPORT
  2
*ACTIVE
 70
     0
 10
0.0
 20
0.0
 11
1.0
 21
1.0
 12
107.2256518007902
 22
157.6612889841499
 13
0.0
 23
0.0
 14
1.0
 24
1.0
 15
10.0
 25
10.0
 16
0.0
 26
0.0
 36
1.0
 17
0.0
 27
0.0
 37
0.0
 40
81.89475246524285
 41
1.275675675675675
 42
50.0
 43
0.0
 44
0.0
 50
0.0
 51
0.0
 71
     0
 72
 20000
 73
     1
 74
     0
 75
     0
 76
     0
 77
     0
 78
     0
  0
ENDTAB
  0
TABLE
  2
LTYPE
 70
     2
  0
LTYPE
  2
AUSGEZOGEN
 70
    64
  3
Solid line
 72
    65
 73
     0
 40
0.0
  0
LTYPE
  2
ITEM-STRICHPGR
 70
    64
  3
____ . ____ . ____ . ____ . ____ . ____ . ____
 72
    65
 73
     4
 40
15.0
 49
10.0
 49
-2.5
 49
0.0
 49
-2.5
  0
ENDTAB
  0
TABLE
  2
LAYER
 70
     5
  0
LAYER
  2
0
 70
     0
 62
     7
  6
AUSGEZOGEN
  0
LAYER
  2
ITEM_50
 70
    64
 62
     7
  6
AUSGEZOGEN
  0
LAYER
  2
ITEM_25
 70
    64
 62
     3
  6
AUSGEZOGEN
  0
LAYER
  2
ITEM_HILFE
 70
    64
 62
     3
  6
AUSGEZOGEN
  0
LAYER
  2
ITEM_STPG
 70
    64
 62
     4
  6
ITEM-STRICHPGR
  0
ENDTAB
  0
TABLE
  2
STYLE
 70
     1
  0
STYLE
  2
STANDARD
 70
     0
 40
0.0
 41
1.0
 50
0.0
 71
     0
 42
3.5
  3
iso
  4

  0
ENDTAB
  0
TABLE
  2
VIEW
 70
     0
  0
ENDTAB
  0
TABLE
  2
UCS
 70
     0
  0
ENDTAB
  0
TABLE
  2
APPID
 70
     1
  0
APPID
  2
ACAD
 70
    64
  0
ENDTAB
  0
TABLE
  2
DIMSTYLE
 70
     0
  0
ENDTAB
  0
ENDSEC
  0
SECTION
  2
BLOCKS
  0
ENDSEC
  0
SECTION
  2
ENTITIES
  0
POINT
  8
ITEM_HILFE
 10
63.61807995809795
 20
147.8474662509967
 30
0.0
  0
POINT
  8
ITEM_HILFE
 10
63.61807995809795
 20
163.9474662509193
 30
0.0
  0
LINE
  8
ITEM_25
 10
66.85307995809762
 20
167.9474662509198
 30
0.0
 11
66.8530799580982
 21
189.8474662509967
 31
0.0
  0
LINE
  8
ITEM_25
 10
60.38307995809737
 20
167.9474662509193
 30
0.0
 11
60.3830799580979
 21
189.8474662509967
 31
0.0
  0
LINE
  8
ITEM_STPG
 10
63.61807995809795
 20
144.4874997687337
 30
0.0
 11
63.61807995809795
 21
192.378004600459
 31
0.0
  0
LINE
  8
ITEM_50
 10
59.61807995809795
 20
148.6124662509966
 30
0.0
 11
67.61807995809795
 21
148.6124662509966
 31
0.0
  0
LINE
  8
ITEM_25
 10
60.38307995809783
 20
147.8474662509967
 30
0.0
 11
60.38307995809783
 21
163.9474662509162
 31
0.0
  0
LINE
  8
ITEM_25
 10
66.85307995809762
 20
147.8474662509967
 30
0.0
 11
66.85307995809759
 21
163.9474662509162
 31
0.0
  0
ARC
  8
ITEM_50
 10
69.01057995809787
 20
166.8750189468907
 30
0.0
 40
2.927552695971371
 50
232.1211359383017
 51
269.999999999998
  0
ARC
  8
ITEM_50
 10
63.61807995809795
 20
174.7324707108029
 30
0.0
 40
10.78500445988354
 50
250.5287877423619
 51
289.471212257638
  0
ARC
  8
ITEM_50
 10
58.22557995809803
 20
166.8750189468907
 30
0.0
 40
2.927552695971371
 50
270.0000000000019
 51
307.8788640616982
  0
ARC
  8
ITEM_50
 10
69.01057995809787
 20
165.019913554948
 30
0.0
 40
2.927552695971371
 50
90.000000000002
 51
127.8788640616982
  0
ARC
  8
ITEM_50
 10
63.61807995809795
 20
157.1624617910358
 30
0.0
 40
10.78500445988354
 50
70.52878774236194
 51
109.471212257638
  0
ARC
  8
ITEM_50
 10
58.22557995809803
 20
165.019913554948
 30
0.0
 40
2.927552695971371
 50
52.12113593830179
 51
89.99999999999801
  0
LINE
  8
ITEM_50
 10
67.21307995809775
 20
164.5642704669195
 30
0.0
 11
67.21307995809775
 21
167.3306620349191
 31
0.0
  0
LINE
  8
ITEM_50
 10
60.02307995809815
 20
164.5642704669195
 30
0.0
 11
60.02307995809815
 21
167.3306620349191
 31
0.0
  0
LINE
  8
ITEM_50
 10
59.61807995809795
 20
167.9474662509193
 30
0.0
 11
59.61807995809795
 21
189.0824662509967
 31
0.0
  0
LINE
  8
ITEM_50
 10
67.61807995809802
 20
189.0824662509967
 30
0.0
 11
67.61807995809749
 21
167.9474662509193
 31
0.0
  0
LINE
  8
ITEM_50
 10
56.4280799580979
 20
167.3306620349191
 30
0.0
 11
56.4280799580979
 21
164.5642704669195
 31
0.0
  0
ARC
  8
ITEM_50
 10
58.22557995809803
 20
166.8750189468909
 30
0.0
 40
2.927552695971541
 50
232.1211359383038
 51
270.0
  0
LINE
  8
ITEM_50
 10
58.22557995809803
 20
163.9474662509193
 30
0.0
 11
63.61807995809795
 21
163.9474662509193
 31
0.0
  0
LINE
  8
ITEM_50
 10
63.61807995809795
 20
163.9474662509193
 30
0.0
 11
69.01057995809787
 21
163.9474662509193
 31
0.0
  0
ARC
  8
ITEM_50
 10
69.01057995809787
 20
166.8750189468909
 30
0.0
 40
2.927552695971542
 50
270.0
 51
307.8788640616961
  0
LINE
  8
ITEM_50
 10
70.808079958098
 20
164.5642704669195
 30
0.0
 11
70.808079958098
 21
167.3306620349191
 31
0.0
  0
ARC
  8
ITEM_50
 10
69.01057995809787
 20
165.0199135549478
 30
0.0
 40
2.927552695971541
 50
52.12113593830382
 51
90.0
  0
LINE
  8
ITEM_50
 10
69.01057995809787
 20
167.9474662509193
 30
0.0
 11
63.61807995809795
 21
167.9474662509193
 31
0.0
  0
LINE
  8
ITEM_50
 10
63.61807995809795
 20
167.9474662509193
 30
0.0
 11
58.22557995809803
 21
167.9474662509193
 31
0.0
  0
ARC
  8
ITEM_50
 10
58.22557995809803
 20
165.0199135549478
 30
0.0
 40
2.927552695971542
 50
90.0
 51
127.8788640616961
  0
LINE
  8
ITEM_50
 10
60.38307995809783
 20
147.8474662509967
 30
0.0
 11
59.61807995809795
 21
148.6124662509966
 31
0.0
  0
LINE
  8
ITEM_50
 10
59.61807995809795
 20
148.6124662509966
 30
0.0
 11
59.61807995809798
 21
163.9474662509162
 31
0.0
  0
LINE
  8
ITEM_50
 10
67.61807995809797
 20
163.9474662509162
 30
0.0
 11
67.61807995809795
 21
148.6124662509966
 31
0.0
  0
LINE
  8
ITEM_50
 10
67.61807995809795
 20
148.6124662509966
 30
0.0
 11
66.85307995809762
 21
147.8474662509967
 31
0.0
  0
LINE
  8
ITEM_50
 10
66.85307995809762
 20
147.8474662509967
 30
0.0
 11
60.38307995809783
 21
147.8474662509967
 31
0.0
  0
POINT
  8
ITEM_HILFE
 10
63.6180799580948
 20
125.3419127515285
 30
0.0
  0
CIRCLE
  8
ITEM_50
 10
62.5079835687211
 20
124.439995564847
 30
0.0
 40
0.8917748962649196
  0
CIRCLE
  8
ITEM_50
 10
62.5079835687211
 20
126.24382993821
 30
0.0
 40
0.8917748962649196
  0
CIRCLE
  8
ITEM_50
 10
64.72817634746851
 20
124.439995564847
 30
0.0
 40
0.8917748962649196
  0
CIRCLE
  8
ITEM_50
 10
64.72817634746851
 20
126.24382993821
 30
0.0
 40
0.8917748962649196
  0
CIRCLE
  8
ITEM_50
 10
63.61807995809483
 20
125.3419127515284
 30
0.0
 40
2.325
  0
ARC
  8
ITEM_25
 10
63.61807995809483
 20
125.3419127515284
 30
0.0
 40
3.999999999999988
 50
81.0
 51
8.999999999999847
  0
CIRCLE
  8
ITEM_50
 10
63.61807995809483
 20
125.3419127515284
 30
0.0
 40
3.325
  0
LINE
  8
ITEM_STPG
 10
72.24607995809481
 20
125.3419127515285
 30
0.0
 11
54.9900799580948
 21
125.3419127515285
 31
0.0
  0
LINE
  8
ITEM_STPG
 10
63.6180799580948
 20
116.7139127515285
 30
0.0
 11
63.6180799580948
 21
133.9699127515285
 31
0.0
  0
CIRCLE
  8
ITEM_50
 10
63.6180799580948
 20
125.3419127515285
 30
0.0
 40
6.5
  0
LINE
  8
ITEM_50
 10
70.11807995809482
 20
129.094689501261
 30
0.0
 11
63.6180799580948
 21
132.8474662509936
 31
0.0
  0
LINE
  8
ITEM_50
 10
63.6180799580948
 20
132.8474662509936
 30
0.0
 11
57.1180799580948
 21
129.094689501261
 31
0.0
  0
LINE
  8
ITEM_50
 10
57.1180799580948
 20
129.094689501261
 30
0.0
 11
57.1180799580948
 21
121.5891360017959
 31
0.0
  0
LINE
  8
ITEM_50
 10
57.1180799580948
 20
121.5891360017959
 30
0.0
 11
63.6180799580948
 21
117.8363592520634
 31
0.0
  0
LINE
  8
ITEM_50
 10
63.6180799580948
 20
117.8363592520634
 30
0.0
 11
70.11807995809479
 21
121.5891360017959
 31
0.0
  0
LINE
  8
ITEM_50
 10
70.11807995809479
 20
121.5891360017959
 30
0.0
 11
70.11807995809482
 21
129.094689501261
 31
0.0
  0
LINE
  8
ITEM_50
 10
66.85307995809762
 20
189.8474662509967
 30
0.0
 11
60.38307995809783
 21
189.8474662509967
 31
0.0
  0
LINE
  8
ITEM_50
 10
67.61807995809802
 20
189.0824662509967
 30
0.0
 11
59.61807995809794
 21
189.0824662509967
 31
0.0
  0
LINE
  8
ITEM_50
 10
60.38307995809783
 20
189.8474662509967
 30
0.0
 11
59.61807995809794
 21
189.0824662509967
 31
0.0
  0
LINE
  8
ITEM_50
 10
66.85307995809762
 20
189.8474662509967
 30
0.0
 11
67.61807995809802
 21
189.0824662509967
 31
0.0
  0
ENDSEC
  0
EOF
